Jump to content
Fire At Will

The Official Paramore Guitar/Bass/Drum tabs thread

Recommended Posts

Ultimate-guitar sometimes sucks when it comes to tabbing even when the song is perfect but I just tabbed out That's What You Get on bass.

 

http://www.ultimate-guitar.com/tabs/p/paramore/thats_what_you_get_btab.htm

 

i'm tabbing pessimist right now. I want to tab misery business but I don't know what tuning it's in. Err....

 

thanks a bunch!

Share this post


Link to post
Share on other sites
errr. My tab was rejected. It hasn't even been tabbed yet, I do'nt know why it was rejected

yours got rejected too?? ultimate guitar is making me mad now, i wanted to see your guys' tabs

Share this post


Link to post
Share on other sites
errr. My tab was rejected. It hasn't even been tabbed yet, I do'nt know why it was rejected

 

ugh, Ultimate-guitar's so weird. I hope you can still tab out some of the bass though! Not that many people play bass and I'm not that good yet to be able to tab stuff out haha XD

Share this post


Link to post
Share on other sites

Haha I'm such a beginner at guitar. I just recently learned the full Happy Birthday to You song with chords and whatnot.

Share this post


Link to post
Share on other sites
does anybody have any guitar tabs for "That's What You Get" and "When it Rains"? I was thinking of doing them for my friends birthday.

 

yerr?

 

does any body know the chords for when it rains? i cant figuare out chords for crap

Share this post


Link to post
Share on other sites

I know I said I wasnt gonna tab anything anymore because of the huge waste of time ultimate guitar caused me but I figure its not your guys fault so I ill start workin on tabbing out some of the songs and just releasing them here in this forum. I already know all the parts for about 3 or 4 songs I just need to tab it.

 

Also if there were a request for a cover of a new song which one would it be?

Share this post


Link to post
Share on other sites
yerr?

 

does any body know the chords for when it rains? i cant figuare out chords for crap

 

a tip for figuring out chords is to listen to the bass guitar figure out what root notes hes playing first then work out the guitar chords from that.

 

I decided to do a cover of Thats what you get so ill post it tomorrow its sounds pretty cool.

Share this post


Link to post
Share on other sites
a tip for figuring out chords is to listen to the bass guitar figure out what root notes hes playing first then work out the guitar chords from that.

 

oh ok... thanks! that helps alot

 

I decided to do a cover of Thats what you get so ill post it tomorrow its sounds pretty cool.

 

ooo.. can't wait!

Share this post


Link to post
Share on other sites
I know I said I wasnt gonna tab anything anymore because of the huge waste of time ultimate guitar caused me but I figure its not your guys fault so I ill start workin on tabbing out some of the songs and just releasing them here in this forum. I already know all the parts for about 3 or 4 songs I just need to tab it.

 

Also if there were a request for a cover of a new song which one would it be?

 

do you think you could do the bass tabs too? Im not good at figuring out bass tabs lol. I'm still a beginner at playing bass :mrgreen:

Share this post


Link to post
Share on other sites

OK I spent the last 3 hours learning Hallelujah on the drums. I cannot for the life of me figure out the part at :33 seconds to :44 seconds. Its 11 seconds long and happens twice in the song i think. I dont want to make something else up in its place, I want this exact!

 

Any help would be awesome!

 

Thanks,

Anthony

Share this post


Link to post
Share on other sites

you could get chords from ultimate-guitar.com. just search Here We Go Again and click on the chords with the most stars. They sound pretty accurate :P

Share this post


Link to post
Share on other sites
OK I spent the last 3 hours learning Hallelujah on the drums. I cannot for the life of me figure out the part at :33 seconds to :44 seconds. Its 11 seconds long and happens twice in the song i think. I dont want to make something else up in its place, I want this exact!

 

Any help would be awesome!

 

Thanks,

Anthony

I'll work on it. It might take me a little while but I'll try.

Share this post


Link to post
Share on other sites

i've got most of let the flames begin for guitar. i haven't gotten the part before the chorus/chorus though.

since it's kinda short i'll post it here...i don't really want to post just this on ultimate guitar until it's complete.

 

 

 

intro.....the picking is easy to figure out

|---------14-----14-------14--------------

|----14------10------12-------------------

|------------------------------------------

|------------------------------------------

|------------------------------------------

|------------------------------------------

 

|-----------------------------------------

|-----------10----------------------------

|------------------9-----11---------------

|---7--9----------------------------------

|-----------------------------------------

|-----------------------------------------

 

|------------------------------------------

|-----------10-----------------------------

|------------------9---6---11--------------

|---7--9-----------------------------------

|------------------------------------------

|-------------------------------------------

 

 

 

the part around 2:05 til the end basically

|-------------------------------------------------------

|--14---------------------------------------------------

|-------14--13--13---11--11----9-----------------------

|-----------------------------------------1111----------

|-------------------------------------------------------

|-------------------------------------------------------

 

|----------------------------------------------------------------

|--14------------------------------------------------------------

|-------14--13--13---11--11----9--------------------------------

|----------------------------------------1111----11--12--14-----

|----------------------------------------------------------------

|----------------------------------------------------------------

 

 

this is the first tab i've done though, so it may not be rght. keep that in mind. lol

Share this post


Link to post
Share on other sites
i've got most of let the flames begin for guitar. i haven't gotten the part before the chorus/chorus though.

since it's kinda short i'll post it here...i don't really want to post just this on ultimate guitar until it's complete.

 

 

 

intro.....the picking is easy to figure out

|---------14-----14-------14--------------

|----14------10------12-------------------

|------------------------------------------

|------------------------------------------

|------------------------------------------

|------------------------------------------

 

|-----------------------------------------

|-----------10----------------------------

|------------------9-----11---------------

|---7--9----------------------------------

|-----------------------------------------

|-----------------------------------------

 

|------------------------------------------

|-----------10-----------------------------

|------------------9---6---11--------------

|---7--9-----------------------------------

|------------------------------------------

|-------------------------------------------

 

 

 

the part around 2:05 til the end basically

|-------------------------------------------------------

|--14---------------------------------------------------

|-------14--13--13---11--11----9-----------------------

|-----------------------------------------1111----------

|-------------------------------------------------------

|-------------------------------------------------------

 

|----------------------------------------------------------------

|--14------------------------------------------------------------

|-------14--13--13---11--11----9--------------------------------

|----------------------------------------1111----11--12--14-----

|----------------------------------------------------------------

|----------------------------------------------------------------

 

 

this is the first tab i've done though, so it may not be rght. keep that in mind. lol

 

Not bad at all for a first attempt although if I may correct you I believe it is being played like this.

 

Dont forget I think they are tuned down a half step so unless you do that it wont sound right if you play this with the cd. Your other part looks correct if you tune down a half step.

|-------------------------------------------------------------------------------------------------

|-------------------------------------------------------------------------------------------------

|------0-----0-----0-----0------0-----0----0---0----0----0-----0------0----0----0----0----0----

|--12----12----12----12--------------------------------------------------------------------------

|---------------------------13----13---13---13---15---15---15----15----15---15---15---15-------

|-------------------------------------------------------------------------------------------------

Share this post


Link to post
Share on other sites

I really need to retab misery bussiness and post it here, I had a great tab for it and sent it to ultimate guitar tab but they must not have liked my tabbing format or something because it got rejected even though I know it was 100% correct.

Share this post


Link to post
Share on other sites

Create an account or sign in to comment

You need to be a member in order to leave a comment

Create an account

Sign up for a new account in our community. It's easy!

Register a new account

Sign in

Already have an account? Sign in here.

Sign In Now

×